ISO-10303-21;
HEADER;
FILE_DESCRIPTION (( 'STEP AP214' ),
    '1' );
FILE_NAME ('90000465 (160mm x 2000mm).STEP',
    '2025-03-06T12:54:01',
    ( '' ),
    ( '' ),
    'SwSTEP 2.0',
    'SolidWorks 2024',
    '' );
FILE_SCHEMA (( 'AUTOMOTIVE_DESIGN' ));
ENDSEC;

DATA;
#1 = AXIS2_PLACEMENT_3D ( 'NONE', #65, #129, #66 ) ;
#2 = CLOSED_SHELL ( 'NONE', ( #157, #56, #106, #12, #161, #9 ) ) ;
#3 = ORIENTED_EDGE ( 'NONE', *, *, #138, .F. ) ;
#4 = DIRECTION ( 'NONE',  ( 0.000000000000000000, 0.000000000000000000, -1.000000000000000000 ) ) ;
#5 = EDGE_CURVE ( 'NONE', #105, #92, #18, .T. ) ;
#6 = FACE_BOUND ( 'NONE', #89, .T. ) ;
#7 = CARTESIAN_POINT ( 'NONE',  ( 2000.000000000000000, 1.175660927181459316E-14, -96.00000000000001421 ) ) ;
#8 = CYLINDRICAL_SURFACE ( 'NONE', #85, 80.00000000000000000 ) ;
#9 = ADVANCED_FACE ( 'NONE', ( #121 ), #76, .F. ) ;
#10 = DIRECTION ( 'NONE',  ( -1.000000000000000000, -0.000000000000000000, -0.000000000000000000 ) ) ;
#11 =( NAMED_UNIT ( * ) SI_UNIT ( $, .STERADIAN. ) SOLID_ANGLE_UNIT ( ) );
#12 = ADVANCED_FACE ( 'NONE', ( #15, #6 ), #123, .F. ) ;
#13 = ORIENTED_EDGE ( 'NONE', *, *, #138, .T. ) ;
#14 = ORIENTED_EDGE ( 'NONE', *, *, #5, .T. ) ;
#15 = FACE_OUTER_BOUND ( 'NONE', #135, .T. ) ;
#16 = CARTESIAN_POINT ( 'NONE',  ( 2000.000000000000000, 0.000000000000000000, 0.000000000000000000 ) ) ;
#17 = EDGE_CURVE ( 'NONE', #136, #183, #22, .T. ) ;
#18 = LINE ( 'NONE', #58, #104 ) ;
#19 = SURFACE_STYLE_USAGE ( .BOTH. , #98 ) ;
#20 = FACE_OUTER_BOUND ( 'NONE', #88, .T. ) ;
#21 = PLANE ( 'NONE',  #119 ) ;
#22 = CIRCLE ( 'NONE', #28, 80.00000000000000000 ) ;
#23 = CARTESIAN_POINT ( 'NONE',  ( 2000.000000000000000, 0.000000000000000000, 0.000000000000000000 ) ) ;
#24 = CARTESIAN_POINT ( 'NONE',  ( 2000.000000000000000, 0.000000000000000000, 0.000000000000000000 ) ) ;
#25 = AXIS2_PLACEMENT_3D ( 'NONE', #142, #163, #160 ) ;
#26 = EDGE_CURVE ( 'NONE', #44, #92, #194, .T. ) ;
#27 = CARTESIAN_POINT ( 'NONE',  ( 2000.000000000000000, 0.000000000000000000, 0.000000000000000000 ) ) ;
#28 = AXIS2_PLACEMENT_3D ( 'NONE', #33, #75, #115 ) ;
#29 = VERTEX_POINT ( 'NONE', #155 ) ;
#30 = ORIENTED_EDGE ( 'NONE', *, *, #5, .F. ) ;
#31 = ORIENTED_EDGE ( 'NONE', *, *, #84, .T. ) ;
#32 = DIRECTION ( 'NONE',  ( 1.000000000000000000, 0.000000000000000000, 0.000000000000000000 ) ) ;
#33 = CARTESIAN_POINT ( 'NONE',  ( 0.000000000000000000, 0.000000000000000000, 0.000000000000000000 ) ) ;
#34 = VECTOR ( 'NONE', #61, 1000.000000000000000 ) ;
#35 = CARTESIAN_POINT ( 'NONE',  ( 0.000000000000000000, 0.000000000000000000, 0.000000000000000000 ) ) ;
#36 = LINE ( 'NONE', #39, #172 ) ;
#37 = PRODUCT_DEFINITION_SHAPE ( 'NONE', 'NONE',  #125 ) ;
#38 = FACE_BOUND ( 'NONE', #164, .T. ) ;
#39 = CARTESIAN_POINT ( 'NONE',  ( 2000.000000000000000, 0.000000000000000000, 80.00000000000000000 ) ) ;
#40 = CIRCLE ( 'NONE', #168, 80.00000000000000000 ) ;
#41 = CARTESIAN_POINT ( 'NONE',  ( 0.000000000000000000, 9.797174393178826052E-15, -80.00000000000000000 ) ) ;
#42 = DIRECTION ( 'NONE',  ( -1.000000000000000000, -0.000000000000000000, -0.000000000000000000 ) ) ;
#43 = AXIS2_PLACEMENT_3D ( 'NONE', #24, #99, #68 ) ;
#44 = VERTEX_POINT ( 'NONE', #50 ) ;
#45 = CARTESIAN_POINT ( 'NONE',  ( 2000.000000000000000, 0.000000000000000000, 0.000000000000000000 ) ) ;
#46 = DIRECTION ( 'NONE',  ( 1.000000000000000000, 0.000000000000000000, 0.000000000000000000 ) ) ;
#47 = VERTEX_POINT ( 'NONE', #189 ) ;
#48 = AXIS2_PLACEMENT_3D ( 'NONE', #27, #82, #143 ) ;
#49 = DIRECTION ( 'NONE',  ( 0.000000000000000000, 0.000000000000000000, 1.000000000000000000 ) ) ;
#50 = CARTESIAN_POINT ( 'NONE',  ( 0.000000000000000000, 1.175660927181459316E-14, -96.00000000000001421 ) ) ;
#51 = PRESENTATION_LAYER_ASSIGNMENT (  '', '', ( #134 ) ) ;
#52 = CYLINDRICAL_SURFACE ( 'NONE', #112, 96.00000000000001421 ) ;
#53 = APPLICATION_PROTOCOL_DEFINITION ( 'draft international standard', 'automotive_design', 1998, #159 ) ;
#54 = ORIENTED_EDGE ( 'NONE', *, *, #67, .T. ) ;
#55 =( GEOMETRIC_REPRESENTATION_CONTEXT ( 3 ) GLOBAL_UNCERTAINTY_ASSIGNED_CONTEXT ( ( #100 ) ) GLOBAL_UNIT_ASSIGNED_CONTEXT ( ( #144, #181, #11 ) ) REPRESENTATION_CONTEXT ( 'NONE', 'WORKASPACE' ) );
#56 = ADVANCED_FACE ( 'NONE', ( #20 ), #91, .T. ) ;
#57 = ORIENTED_EDGE ( 'NONE', *, *, #192, .F. ) ;
#58 = CARTESIAN_POINT ( 'NONE',  ( 2000.000000000000000, 0.000000000000000000, 96.00000000000001421 ) ) ;
#59 = DIRECTION ( 'NONE',  ( -1.000000000000000000, -0.000000000000000000, -0.000000000000000000 ) ) ;
#60 = DIRECTION ( 'NONE',  ( -1.000000000000000000, -0.000000000000000000, -0.000000000000000000 ) ) ;
#61 = DIRECTION ( 'NONE',  ( -1.000000000000000000, -0.000000000000000000, -0.000000000000000000 ) ) ;
#62 = CARTESIAN_POINT ( 'NONE',  ( 0.000000000000000000, 0.000000000000000000, 80.00000000000000000 ) ) ;
#63 = FACE_OUTER_BOUND ( 'NONE', #166, .T. ) ;
#64 =( NAMED_UNIT ( * ) PLANE_ANGLE_UNIT ( ) SI_UNIT ( $, .RADIAN. ) );
#65 = CARTESIAN_POINT ( 'NONE',  ( 0.000000000000000000, 0.000000000000000000, 0.000000000000000000 ) ) ;
#66 = DIRECTION ( 'NONE',  ( 1.000000000000000000, 0.000000000000000000, 0.000000000000000000 ) ) ;
#67 = EDGE_CURVE ( 'NONE', #183, #136, #40, .T. ) ;
#68 = DIRECTION ( 'NONE',  ( 0.000000000000000000, 0.000000000000000000, -1.000000000000000000 ) ) ;
#69 = AXIS2_PLACEMENT_3D ( 'NONE', #45, #148, #173 ) ;
#70 = ORIENTED_EDGE ( 'NONE', *, *, #132, .F. ) ;
#71 = ORIENTED_EDGE ( 'NONE', *, *, #132, .T. ) ;
#72 = AXIS2_PLACEMENT_3D ( 'NONE', #149, #32, #4 ) ;
#73 = EDGE_CURVE ( 'NONE', #29, #105, #150, .T. ) ;
#74 = ORIENTED_EDGE ( 'NONE', *, *, #180, .T. ) ;
#75 = DIRECTION ( 'NONE',  ( 1.000000000000000000, 0.000000000000000000, 0.000000000000000000 ) ) ;
#76 = CYLINDRICAL_SURFACE ( 'NONE', #69, 80.00000000000000000 ) ;
#77 = PRESENTATION_STYLE_ASSIGNMENT (( #19 ) ) ;
#78 = CARTESIAN_POINT ( 'NONE',  ( 2000.000000000000000, 0.000000000000000000, 96.00000000000001421 ) ) ;
#79 = DIRECTION ( 'NONE',  ( 0.000000000000000000, 0.000000000000000000, -1.000000000000000000 ) ) ;
#80 = MECHANICAL_DESIGN_GEOMETRIC_PRESENTATION_REPRESENTATION (  '', ( #134 ), #182 ) ;
#81 = SURFACE_STYLE_FILL_AREA ( #191 ) ;
#82 = DIRECTION ( 'NONE',  ( 1.000000000000000000, 0.000000000000000000, 0.000000000000000000 ) ) ;
#83 = ADVANCED_BREP_SHAPE_REPRESENTATION ( '90000465 (160mm x 2000mm)', ( #107, #1 ), #55 ) ;
#84 = EDGE_CURVE ( 'NONE', #111, #183, #122, .T. ) ;
#85 = AXIS2_PLACEMENT_3D ( 'NONE', #126, #190, #49 ) ;
#86 = APPLICATION_PROTOCOL_DEFINITION ( 'draft international standard', 'automotive_design', 1998, #177 ) ;
#87 = AXIS2_PLACEMENT_3D ( 'NONE', #140, #59, #156 ) ;
#88 = EDGE_LOOP ( 'NONE', ( #95, #13, #109, #30 ) ) ;
#89 = EDGE_LOOP ( 'NONE', ( #90, #54 ) ) ;
#90 = ORIENTED_EDGE ( 'NONE', *, *, #17, .T. ) ;
#91 = CYLINDRICAL_SURFACE ( 'NONE', #87, 96.00000000000001421 ) ;
#92 = VERTEX_POINT ( 'NONE', #174 ) ;
#93 = VECTOR ( 'NONE', #10, 1000.000000000000000 ) ;
#94 = CARTESIAN_POINT ( 'NONE',  ( 2000.000000000000000, 9.797174393178826052E-15, -80.00000000000000000 ) ) ;
#95 = ORIENTED_EDGE ( 'NONE', *, *, #73, .F. ) ;
#96 = DIRECTION ( 'NONE',  ( 1.000000000000000000, 0.000000000000000000, 0.000000000000000000 ) ) ;
#97 = DIRECTION ( 'NONE',  ( 1.000000000000000000, 0.000000000000000000, 0.000000000000000000 ) ) ;
#98 = SURFACE_SIDE_STYLE ('',( #81 ) ) ;
#99 = DIRECTION ( 'NONE',  ( 1.000000000000000000, 0.000000000000000000, 0.000000000000000000 ) ) ;
#100 = UNCERTAINTY_MEASURE_WITH_UNIT (LENGTH_MEASURE( 1.000000000000000082E-05 ), #144, 'distance_accuracy_value', 'NONE');
#101 = DIRECTION ( 'NONE',  ( 0.000000000000000000, 0.000000000000000000, 1.000000000000000000 ) ) ;
#102 = UNCERTAINTY_MEASURE_WITH_UNIT (LENGTH_MEASURE( 1.000000000000000082E-05 ), #176, 'distance_accuracy_value', 'NONE');
#103 = EDGE_LOOP ( 'NONE', ( #3, #130, #14, #188 ) ) ;
#104 = VECTOR ( 'NONE', #60, 1000.000000000000000 ) ;
#105 = VERTEX_POINT ( 'NONE', #78 ) ;
#106 = ADVANCED_FACE ( 'NONE', ( #63, #38 ), #21, .T. ) ;
#107 = MANIFOLD_SOLID_BREP ( 'Boss-Extrude1', #2 ) ;
#108 = ORIENTED_EDGE ( 'NONE', *, *, #26, .F. ) ;
#109 = ORIENTED_EDGE ( 'NONE', *, *, #26, .T. ) ;
#110 = FILL_AREA_STYLE_COLOUR ( '', #178 ) ;
#111 = VERTEX_POINT ( 'NONE', #94 ) ;
#112 = AXIS2_PLACEMENT_3D ( 'NONE', #117, #42, #101 ) ;
#113 = CARTESIAN_POINT ( 'NONE',  ( 0.000000000000000000, 0.000000000000000000, 0.000000000000000000 ) ) ;
#114 = DIRECTION ( 'NONE',  ( 0.000000000000000000, 0.000000000000000000, -1.000000000000000000 ) ) ;
#115 = DIRECTION ( 'NONE',  ( 0.000000000000000000, 0.000000000000000000, -1.000000000000000000 ) ) ;
#116 = AXIS2_PLACEMENT_3D ( 'NONE', #35, #120, #171 ) ;
#117 = CARTESIAN_POINT ( 'NONE',  ( 2000.000000000000000, 0.000000000000000000, 0.000000000000000000 ) ) ;
#118 = ORIENTED_EDGE ( 'NONE', *, *, #17, .F. ) ;
#119 = AXIS2_PLACEMENT_3D ( 'NONE', #23, #141, #127 ) ;
#120 = DIRECTION ( 'NONE',  ( 1.000000000000000000, 0.000000000000000000, 0.000000000000000000 ) ) ;
#121 = FACE_OUTER_BOUND ( 'NONE', #133, .T. ) ;
#122 = LINE ( 'NONE', #187, #93 ) ;
#123 = PLANE ( 'NONE',  #116 ) ;
#124 = CARTESIAN_POINT ( 'NONE',  ( 0.000000000000000000, 0.000000000000000000, 0.000000000000000000 ) ) ;
#125 = PRODUCT_DEFINITION ( 'UNKNOWN', '', #175, #170 ) ;
#126 = CARTESIAN_POINT ( 'NONE',  ( 2000.000000000000000, 0.000000000000000000, 0.000000000000000000 ) ) ;
#127 = DIRECTION ( 'NONE',  ( 0.000000000000000000, 0.000000000000000000, -1.000000000000000000 ) ) ;
#128 = CIRCLE ( 'NONE', #43, 80.00000000000000000 ) ;
#129 = DIRECTION ( 'NONE',  ( 0.000000000000000000, 0.000000000000000000, 1.000000000000000000 ) ) ;
#130 = ORIENTED_EDGE ( 'NONE', *, *, #180, .F. ) ;
#131 = CIRCLE ( 'NONE', #48, 80.00000000000000000 ) ;
#132 = EDGE_CURVE ( 'NONE', #47, #136, #36, .T. ) ;
#133 = EDGE_LOOP ( 'NONE', ( #167, #185, #71, #151 ) ) ;
#134 = STYLED_ITEM ( 'NONE', ( #77 ), #107 ) ;
#135 = EDGE_LOOP ( 'NONE', ( #169, #108 ) ) ;
#136 = VERTEX_POINT ( 'NONE', #62 ) ;
#137 = LINE ( 'NONE', #7, #34 ) ;
#138 = EDGE_CURVE ( 'NONE', #29, #44, #137, .T. ) ;
#139 = FACE_OUTER_BOUND ( 'NONE', #186, .T. ) ;
#140 = CARTESIAN_POINT ( 'NONE',  ( 2000.000000000000000, 0.000000000000000000, 0.000000000000000000 ) ) ;
#141 = DIRECTION ( 'NONE',  ( 1.000000000000000000, 0.000000000000000000, 0.000000000000000000 ) ) ;
#142 = CARTESIAN_POINT ( 'NONE',  ( 2000.000000000000000, 0.000000000000000000, 0.000000000000000000 ) ) ;
#143 = DIRECTION ( 'NONE',  ( 0.000000000000000000, 0.000000000000000000, -1.000000000000000000 ) ) ;
#144 =( LENGTH_UNIT ( ) NAMED_UNIT ( * ) SI_UNIT ( .MILLI., .METRE. ) );
#145 = ORIENTED_EDGE ( 'NONE', *, *, #73, .T. ) ;
#146 = PRODUCT_RELATED_PRODUCT_CATEGORY ( 'part', '', ( #197 ) ) ;
#147 = ORIENTED_EDGE ( 'NONE', *, *, #195, .F. ) ;
#148 = DIRECTION ( 'NONE',  ( -1.000000000000000000, -0.000000000000000000, -0.000000000000000000 ) ) ;
#149 = CARTESIAN_POINT ( 'NONE',  ( 0.000000000000000000, 0.000000000000000000, 0.000000000000000000 ) ) ;
#150 = CIRCLE ( 'NONE', #184, 96.00000000000001421 ) ;
#151 = ORIENTED_EDGE ( 'NONE', *, *, #67, .F. ) ;
#152 = DIRECTION ( 'NONE',  ( -1.000000000000000000, -0.000000000000000000, -0.000000000000000000 ) ) ;
#153 = EDGE_CURVE ( 'NONE', #92, #44, #165, .T. ) ;
#154 = DIRECTION ( 'NONE',  ( 0.000000000000000000, 0.000000000000000000, -1.000000000000000000 ) ) ;
#155 = CARTESIAN_POINT ( 'NONE',  ( 2000.000000000000000, 1.175660927181459316E-14, -96.00000000000001421 ) ) ;
#156 = DIRECTION ( 'NONE',  ( 0.000000000000000000, 0.000000000000000000, 1.000000000000000000 ) ) ;
#157 = ADVANCED_FACE ( 'NONE', ( #139 ), #8, .F. ) ;
#158 = FACE_OUTER_BOUND ( 'NONE', #103, .T. ) ;
#159 = APPLICATION_CONTEXT ( 'automotive_design' ) ;
#160 = DIRECTION ( 'NONE',  ( 0.000000000000000000, 0.000000000000000000, -1.000000000000000000 ) ) ;
#161 = ADVANCED_FACE ( 'NONE', ( #158 ), #52, .T. ) ;
#162 = SHAPE_DEFINITION_REPRESENTATION ( #37, #83 ) ;
#163 = DIRECTION ( 'NONE',  ( 1.000000000000000000, 0.000000000000000000, 0.000000000000000000 ) ) ;
#164 = EDGE_LOOP ( 'NONE', ( #57, #147 ) ) ;
#165 = CIRCLE ( 'NONE', #196, 96.00000000000001421 ) ;
#166 = EDGE_LOOP ( 'NONE', ( #74, #145 ) ) ;
#167 = ORIENTED_EDGE ( 'NONE', *, *, #84, .F. ) ;
#168 = AXIS2_PLACEMENT_3D ( 'NONE', #113, #46, #114 ) ;
#169 = ORIENTED_EDGE ( 'NONE', *, *, #153, .F. ) ;
#170 = PRODUCT_DEFINITION_CONTEXT ( 'detailed design', #159, 'design' ) ;
#171 = DIRECTION ( 'NONE',  ( 0.000000000000000000, 0.000000000000000000, -1.000000000000000000 ) ) ;
#172 = VECTOR ( 'NONE', #152, 1000.000000000000000 ) ;
#173 = DIRECTION ( 'NONE',  ( 0.000000000000000000, 0.000000000000000000, 1.000000000000000000 ) ) ;
#174 = CARTESIAN_POINT ( 'NONE',  ( 0.000000000000000000, 0.000000000000000000, 96.00000000000001421 ) ) ;
#175 = PRODUCT_DEFINITION_FORMATION_WITH_SPECIFIED_SOURCE ( 'ANY', '', #197, .NOT_KNOWN. ) ;
#176 =( LENGTH_UNIT ( ) NAMED_UNIT ( * ) SI_UNIT ( .MILLI., .METRE. ) );
#177 = APPLICATION_CONTEXT ( 'automotive_design' ) ;
#178 = COLOUR_RGB ( '',0.7921568627450980005, 0.8196078431372548767, 0.9333333333333333481 ) ;
#179 = PRODUCT_CONTEXT ( 'NONE', #177, 'mechanical' ) ;
#180 = EDGE_CURVE ( 'NONE', #105, #29, #199, .T. ) ;
#181 =( NAMED_UNIT ( * ) PLANE_ANGLE_UNIT ( ) SI_UNIT ( $, .RADIAN. ) );
#182 =( GEOMETRIC_REPRESENTATION_CONTEXT ( 3 ) GLOBAL_UNCERTAINTY_ASSIGNED_CONTEXT ( ( #102 ) ) GLOBAL_UNIT_ASSIGNED_CONTEXT ( ( #176, #64, #193 ) ) REPRESENTATION_CONTEXT ( 'NONE', 'WORKASPACE' ) );
#183 = VERTEX_POINT ( 'NONE', #41 ) ;
#184 = AXIS2_PLACEMENT_3D ( 'NONE', #16, #97, #79 ) ;
#185 = ORIENTED_EDGE ( 'NONE', *, *, #195, .T. ) ;
#186 = EDGE_LOOP ( 'NONE', ( #198, #31, #118, #70 ) ) ;
#187 = CARTESIAN_POINT ( 'NONE',  ( 2000.000000000000000, 9.797174393178826052E-15, -80.00000000000000000 ) ) ;
#188 = ORIENTED_EDGE ( 'NONE', *, *, #153, .T. ) ;
#189 = CARTESIAN_POINT ( 'NONE',  ( 2000.000000000000000, 0.000000000000000000, 80.00000000000000000 ) ) ;
#190 = DIRECTION ( 'NONE',  ( -1.000000000000000000, -0.000000000000000000, -0.000000000000000000 ) ) ;
#191 = FILL_AREA_STYLE ('',( #110 ) ) ;
#192 = EDGE_CURVE ( 'NONE', #47, #111, #131, .T. ) ;
#193 =( NAMED_UNIT ( * ) SI_UNIT ( $, .STERADIAN. ) SOLID_ANGLE_UNIT ( ) );
#194 = CIRCLE ( 'NONE', #72, 96.00000000000001421 ) ;
#195 = EDGE_CURVE ( 'NONE', #111, #47, #128, .T. ) ;
#196 = AXIS2_PLACEMENT_3D ( 'NONE', #124, #96, #154 ) ;
#197 = PRODUCT ( '90000465 (160mm x 2000mm)', '90000465 (160mm x 2000mm)', '', ( #179 ) ) ;
#198 = ORIENTED_EDGE ( 'NONE', *, *, #192, .T. ) ;
#199 = CIRCLE ( 'NONE', #25, 96.00000000000001421 ) ;
ENDSEC;
END-ISO-10303-21;
